ISO-10303-21;
HEADER;
FILE_DESCRIPTION (( 'STEP AP203' ),
    '1' );
FILE_NAME ('David intake V2 part 1.STEP',
    '2018-01-18T22:35:13',
    ( '' ),
    ( '' ),
    'SwSTEP 2.0',
    'SolidWorks 2017',
    '' );
FILE_SCHEMA (( 'CONFIG_CONTROL_DESIGN' ));
ENDSEC;

DATA;
#1 = PERSON_AND_ORGANIZATION_ROLE ( 'creator' ) ;
#2 = ORIENTED_EDGE ( 'NONE', *, *, #116, .F. ) ;
#3 = ORIENTED_EDGE ( 'NONE', *, *, #43, .F. ) ;
#4 = LINE ( 'NONE', #325, #205 ) ;
#5 = AXIS2_PLACEMENT_3D ( 'NONE', #212, #289, #152 ) ;
#6 = VECTOR ( 'NONE', #100, 39.37007874015748100 ) ;
#7 = ORIENTED_EDGE ( 'NONE', *, *, #229, .F. ) ;
#8 = CARTESIAN_POINT ( 'NONE',  ( -11.00000000000000200, 0.8999999999999999100, -0.9000000000000014700 ) ) ;
#9 = DATE_AND_TIME ( #44, #249 ) ;
#10 = DIRECTION ( 'NONE',  ( 1.241749088029210600E-016, -0.0000000000000000000, 1.000000000000000000 ) ) ;
#11 = PERSON_AND_ORGANIZATION ( #27, #196 ) ;
#12 = CARTESIAN_POINT ( 'NONE',  ( 10.99999999999999800, 0.0000000000000000000, 0.9999999999999984500 ) ) ;
#13 = SECURITY_CLASSIFICATION_LEVEL ( 'unclassified' ) ;
#14 = CARTESIAN_POINT ( 'NONE',  ( 10.99999999999999800, 0.8999999999999999100, -0.9000000000000014700 ) ) ;
#15 = EDGE_CURVE ( 'NONE', #273, #341, #197, .T. ) ;
#16 = FACE_OUTER_BOUND ( 'NONE', #90, .T. ) ;
#17 = DIRECTION ( 'NONE',  ( 1.000000000000000000, -0.0000000000000000000, -0.0000000000000000000 ) ) ;
#18 = PERSON_AND_ORGANIZATION ( #27, #196 ) ;
#19 = LINE ( 'NONE', #12, #6 ) ;
#20 = EDGE_LOOP ( 'NONE', ( #126, #120, #167, #59 ) ) ;
#21 = DIRECTION ( 'NONE',  ( -0.0000000000000000000, -0.0000000000000000000, 1.000000000000000000 ) ) ;
#22 = EDGE_CURVE ( 'NONE', #329, #273, #252, .T. ) ;
#23 = DATE_AND_TIME ( #97, #324 ) ;
#24 = CARTESIAN_POINT ( 'NONE',  ( 10.99999999999999800, 0.09999999999999999200, -0.9000000000000014700 ) ) ;
#25 = EDGE_CURVE ( 'NONE', #335, #361, #307, .T. ) ;
#26 = ORIENTED_EDGE ( 'NONE', *, *, #25, .T. ) ;
#27 = PERSON ( 'UNSPECIFIED', 'UNSPECIFIED', 'UNSPECIFIED', ('UNSPECIFIED'), ('UNSPECIFIED'), ('UNSPECIFIED') ) ;
#28 = EDGE_LOOP ( 'NONE', ( #81, #67, #231, #340 ) ) ;
#29 = LOCAL_TIME ( 17, 35, 13.00000000000000000, #103 ) ;
#30 = CARTESIAN_POINT ( 'NONE',  ( -11.00000000000000200, 0.09999999999999975600, 0.8999999999999984700 ) ) ;
#31 = AXIS2_PLACEMENT_3D ( 'NONE', #297, #77, #242 ) ;
#32 = VECTOR ( 'NONE', #185, 39.37007874015748100 ) ;
#33 = LINE ( 'NONE', #192, #306 ) ;
#34 = ADVANCED_FACE ( 'NONE', ( #163 ), #131, .F. ) ;
#35 = ORIENTED_EDGE ( 'NONE', *, *, #199, .F. ) ;
#36 = LINE ( 'NONE', #24, #260 ) ;
#37 = AXIS2_PLACEMENT_3D ( 'NONE', #186, #319, #98 ) ;
#38 = PERSON_AND_ORGANIZATION_ROLE ( 'creator' ) ;
#39 = VECTOR ( 'NONE', #17, 39.37007874015748100 ) ;
#40 = EDGE_LOOP ( 'NONE', ( #263, #309, #56, #7 ) ) ;
#41 = LINE ( 'NONE', #311, #226 ) ;
#42 = DIRECTION ( 'NONE',  ( 1.000000000000000000, -0.0000000000000000000, -1.241749088029210600E-016 ) ) ;
#43 = EDGE_CURVE ( 'NONE', #335, #348, #94, .T. ) ;
#44 = CALENDAR_DATE ( 2018, 18, 1 ) ;
#45 = CARTESIAN_POINT ( 'NONE',  ( -11.00000000000000200, 0.09999999999999975600, 0.8999999999999984700 ) ) ;
#46 = VERTEX_POINT ( 'NONE', #239 ) ;
#47 = AXIS2_PLACEMENT_3D ( 'NONE', #215, #270, #107 ) ;
#48 = VERTEX_POINT ( 'NONE', #14 ) ;
#49 = CARTESIAN_POINT ( 'NONE',  ( 10.99999999999999800, 0.09999999999999977000, 0.8999999999999984700 ) ) ;
#50 = FACE_BOUND ( 'NONE', #54, .T. ) ;
#51 = CARTESIAN_POINT ( 'NONE',  ( 10.99999999999999800, 0.0000000000000000000, -1.000000000000001600 ) ) ;
#52 = CARTESIAN_POINT ( 'NONE',  ( 10.99999999999999800, 1.000000000000000000, 0.9999999999999984500 ) ) ;
#53 = CARTESIAN_POINT ( 'NONE',  ( 10.99999999999999800, 0.0000000000000000000, 0.9999999999999984500 ) ) ;
#54 = EDGE_LOOP ( 'NONE', ( #64, #195, #285, #353 ) ) ;
#55 = CARTESIAN_POINT ( 'NONE',  ( 0.0000000000000000000, 0.0000000000000000000, 0.0000000000000000000 ) ) ;
#56 = ORIENTED_EDGE ( 'NONE', *, *, #132, .F. ) ;
#57 = VECTOR ( 'NONE', #128, 39.37007874015748100 ) ;
#58 =( CONVERSION_BASED_UNIT ( 'INCH', #61 ) LENGTH_UNIT ( ) NAMED_UNIT ( #102 ) );
#59 = ORIENTED_EDGE ( 'NONE', *, *, #43, .T. ) ;
#60 = AXIS2_PLACEMENT_3D ( 'NONE', #359, #187, #238 ) ;
#61 = LENGTH_MEASURE_WITH_UNIT ( LENGTH_MEASURE( 0.02539999999999999900 ), #142 );
#62 = APPLICATION_PROTOCOL_DEFINITION ( 'international standard', 'config_control_design', 1994, #201 ) ;
#63 = ORIENTED_EDGE ( 'NONE', *, *, #83, .F. ) ;
#64 = ORIENTED_EDGE ( 'NONE', *, *, #339, .T. ) ;
#65 = LINE ( 'NONE', #265, #225 ) ;
#66 = EDGE_CURVE ( 'NONE', #145, #48, #87, .T. ) ;
#67 = ORIENTED_EDGE ( 'NONE', *, *, #331, .F. ) ;
#68 = CARTESIAN_POINT ( 'NONE',  ( 10.99999999999999800, 1.000000000000000000, -1.000000000000001600 ) ) ;
#69 = VECTOR ( 'NONE', #42, 39.37007874015748100 ) ;
#70 = APPROVAL_ROLE ( '' ) ;
#71 = CARTESIAN_POINT ( 'NONE',  ( 10.99999999999999800, 0.09999999999999999200, -0.9000000000000014700 ) ) ;
#72 = EDGE_CURVE ( 'NONE', #361, #374, #302, .T. ) ;
#73 = DATE_TIME_ROLE ( 'classification_date' ) ;
#74 = ORIENTED_EDGE ( 'NONE', *, *, #199, .T. ) ;
#75 = CARTESIAN_POINT ( 'NONE',  ( -11.00000000000000200, 0.8999999999999996900, 0.8999999999999984700 ) ) ;
#76 = APPROVAL_DATE_TIME ( #349, #347 ) ;
#77 = DIRECTION ( 'NONE',  ( 0.0000000000000000000, 0.0000000000000000000, -1.000000000000000000 ) ) ;
#78 = PERSON_AND_ORGANIZATION_ROLE ( 'classification_officer' ) ;
#79 = CARTESIAN_POINT ( 'NONE',  ( -11.00000000000000200, 0.09999999999999975600, 0.8999999999999984700 ) ) ;
#80 = AXIS2_PLACEMENT_3D ( 'NONE', #358, #354, #182 ) ;
#81 = ORIENTED_EDGE ( 'NONE', *, *, #127, .T. ) ;
#82 = DIRECTION ( 'NONE',  ( -1.000000000000000000, 0.0000000000000000000, 1.241749088029210600E-016 ) ) ;
#83 = EDGE_CURVE ( 'NONE', #329, #278, #109, .T. ) ;
#84 = DIRECTION ( 'NONE',  ( 0.0000000000000000000, 1.000000000000000000, 0.0000000000000000000 ) ) ;
#85 = AXIS2_PLACEMENT_3D ( 'NONE', #274, #144, #194 ) ;
#86 = LOCAL_TIME ( 17, 35, 13.00000000000000000, #160 ) ;
#87 = LINE ( 'NONE', #210, #39 ) ;
#88 = CLOSED_SHELL ( 'NONE', ( #321, #250, #106, #146, #355, #338, #34, #135, #290, #175 ) ) ;
#89 = COORDINATED_UNIVERSAL_TIME_OFFSET ( 5, 0, .BEHIND. ) ;
#90 = EDGE_LOOP ( 'NONE', ( #95, #211, #168, #26 ) ) ;
#91 = EDGE_CURVE ( 'NONE', #369, #363, #19, .T. ) ;
#92 = DATE_TIME_ROLE ( 'creation_date' ) ;
#93 = VECTOR ( 'NONE', #162, 39.37007874015748100 ) ;
#94 = LINE ( 'NONE', #188, #230 ) ;
#95 = ORIENTED_EDGE ( 'NONE', *, *, #247, .T. ) ;
#96 = EDGE_CURVE ( 'NONE', #273, #269, #180, .T. ) ;
#97 = CALENDAR_DATE ( 2018, 18, 1 ) ;
#98 = DIRECTION ( 'NONE',  ( 1.000000000000000000, 0.0000000000000000000, -0.0000000000000000000 ) ) ;
#99 = CARTESIAN_POINT ( 'NONE',  ( 10.99999999999999800, 1.000000000000000000, 0.9999999999999984500 ) ) ;
#100 = DIRECTION ( 'NONE',  ( 1.000000000000000000, -0.0000000000000000000, -1.241749088029210600E-016 ) ) ;
#101 = ORIENTED_EDGE ( 'NONE', *, *, #202, .F. ) ;
#102 = DIMENSIONAL_EXPONENTS ( 1.000000000000000000, 0.0000000000000000000, 0.0000000000000000000, 0.0000000000000000000, 0.0000000000000000000, 0.0000000000000000000, 0.0000000000000000000 ) ;
#103 = COORDINATED_UNIVERSAL_TIME_OFFSET ( 5, 0, .BEHIND. ) ;
#104 = DIRECTION ( 'NONE',  ( -1.000000000000000000, 0.0000000000000000000, 1.241749088029210600E-016 ) ) ;
#105 = CARTESIAN_POINT ( 'NONE',  ( 10.99999999999999800, 0.09999999999999975600, 0.8999999999999984700 ) ) ;
#106 = ADVANCED_FACE ( 'NONE', ( #140, #294 ), #267, .F. ) ;
#107 = DIRECTION ( 'NONE',  ( 0.0000000000000000000, 0.0000000000000000000, -1.000000000000000000 ) ) ;
#108 = CARTESIAN_POINT ( 'NONE',  ( -11.00000000000000200, 0.09999999999999999200, -0.9000000000000014700 ) ) ;
#109 = LINE ( 'NONE', #75, #32 ) ;
#110 = EDGE_LOOP ( 'NONE', ( #277, #121, #228, #203 ) ) ;
#111 = DIRECTION ( 'NONE',  ( 0.0000000000000000000, 0.0000000000000000000, -1.000000000000000000 ) ) ;
#112 = PERSON_AND_ORGANIZATION ( #27, #196 ) ;
#113 = LOCAL_TIME ( 17, 35, 13.00000000000000000, #183 ) ;
#114 = DIRECTION ( 'NONE',  ( -0.0000000000000000000, -0.0000000000000000000, 1.000000000000000000 ) ) ;
#115 = COORDINATED_UNIVERSAL_TIME_OFFSET ( 5, 0, .BEHIND. ) ;
#116 = EDGE_CURVE ( 'NONE', #348, #374, #65, .T. ) ;
#117 = CARTESIAN_POINT ( 'NONE',  ( -11.00000000000000200, 0.09999999999999999200, -0.9000000000000014700 ) ) ;
#118 = ORIENTED_EDGE ( 'NONE', *, *, #66, .F. ) ;
#119 = DIRECTION ( 'NONE',  ( 0.0000000000000000000, 0.0000000000000000000, 1.000000000000000000 ) ) ;
#120 = ORIENTED_EDGE ( 'NONE', *, *, #72, .F. ) ;
#121 = ORIENTED_EDGE ( 'NONE', *, *, #96, .F. ) ;
#122 = FACE_OUTER_BOUND ( 'NONE', #305, .T. ) ;
#123 = VECTOR ( 'NONE', #111, 39.37007874015748100 ) ;
#124 = APPROVAL_STATUS ( 'not_yet_approved' ) ;
#125 = VECTOR ( 'NONE', #275, 39.37007874015748100 ) ;
#126 = ORIENTED_EDGE ( 'NONE', *, *, #116, .T. ) ;
#127 = EDGE_CURVE ( 'NONE', #269, #200, #214, .T. ) ;
#128 = DIRECTION ( 'NONE',  ( 0.0000000000000000000, -1.517693329813479600E-016, 1.000000000000000000 ) ) ;
#129 = ORIENTED_EDGE ( 'NONE', *, *, #266, .F. ) ;
#130 = PERSON_AND_ORGANIZATION_ROLE ( 'design_supplier' ) ;
#131 = PLANE ( 'NONE',  #37 ) ;
#132 = EDGE_CURVE ( 'NONE', #48, #278, #365, .T. ) ;
#133 = CARTESIAN_POINT ( 'NONE',  ( -11.00000000000000200, 0.8999999999999996900, 0.8999999999999984700 ) ) ;
#134 = FACE_OUTER_BOUND ( 'NONE', #20, .T. ) ;
#135 = ADVANCED_FACE ( 'NONE', ( #279 ), #264, .F. ) ;
#136 = PRODUCT_RELATED_PRODUCT_CATEGORY ( 'detail', '', ( #371 ) ) ;
#137 = CARTESIAN_POINT ( 'NONE',  ( -11.00000000000000200, 0.0000000000000000000, 1.000000000000001100 ) ) ;
#138 = EDGE_CURVE ( 'NONE', #46, #363, #4, .T. ) ;
#139 = ORIENTED_EDGE ( 'NONE', *, *, #66, .T. ) ;
#140 = FACE_BOUND ( 'NONE', #40, .T. ) ;
#141 = CC_DESIGN_PERSON_AND_ORGANIZATION_ASSIGNMENT ( #342, #246, ( #371 ) ) ;
#142 =( LENGTH_UNIT ( ) NAMED_UNIT ( * ) SI_UNIT ( $, .METRE. ) );
#143 = DATE_AND_TIME ( #244, #113 ) ;
#144 = DIRECTION ( 'NONE',  ( 0.0000000000000000000, 1.000000000000000000, 0.0000000000000000000 ) ) ;
#145 = VERTEX_POINT ( 'NONE', #8 ) ;
#146 = ADVANCED_FACE ( 'NONE', ( #134 ), #234, .F. ) ;
#147 =( NAMED_UNIT ( * ) PLANE_ANGLE_UNIT ( ) SI_UNIT ( $, .RADIAN. ) );
#148 = VECTOR ( 'NONE', #21, 39.37007874015748100 ) ;
#149 = ADVANCED_BREP_SHAPE_REPRESENTATION ( 'David intake V2 part 1', ( #209, #208 ), #154 ) ;
#150 = EDGE_CURVE ( 'NONE', #363, #348, #166, .T. ) ;
#151 = ORIENTED_EDGE ( 'NONE', *, *, #247, .F. ) ;
#152 = DIRECTION ( 'NONE',  ( 0.0000000000000000000, 0.0000000000000000000, 1.000000000000000000 ) ) ;
#153 = CARTESIAN_POINT ( 'NONE',  ( -11.00000000000000200, 1.000000000000000000, -0.9999999999999987800 ) ) ;
#154 =( GEOMETRIC_REPRESENTATION_CONTEXT ( 3 ) GLOBAL_UNCERTAINTY_ASSIGNED_CONTEXT ( ( #276 ) ) GLOBAL_UNIT_ASSIGNED_CONTEXT ( ( #58, #147, #343 ) ) REPRESENTATION_CONTEXT ( 'NONE', 'WORKASPACE' ) );
#155 = DESIGN_CONTEXT ( 'detailed design', #201, 'design' ) ;
#156 = DIRECTION ( 'NONE',  ( -0.0000000000000000000, -1.000000000000000000, -0.0000000000000000000 ) ) ;
#157 = EDGE_LOOP ( 'NONE', ( #259, #118, #129, #219 ) ) ;
#158 = CARTESIAN_POINT ( 'NONE',  ( 10.99999999999999800, 1.000000000000000000, -1.000000000000001600 ) ) ;
#159 = PLANE ( 'NONE',  #296 ) ;
#160 = COORDINATED_UNIVERSAL_TIME_OFFSET ( 5, 0, .BEHIND. ) ;
#161 = APPROVAL ( #284, 'UNSPECIFIED' ) ;
#162 = DIRECTION ( 'NONE',  ( -0.0000000000000000000, -1.000000000000000000, -0.0000000000000000000 ) ) ;
#163 = FACE_OUTER_BOUND ( 'NONE', #110, .T. ) ;
#164 = DIRECTION ( 'NONE',  ( 0.0000000000000000000, 0.0000000000000000000, -1.000000000000000000 ) ) ;
#165 = LINE ( 'NONE', #52, #255 ) ;
#166 = LINE ( 'NONE', #320, #123 ) ;
#167 = ORIENTED_EDGE ( 'NONE', *, *, #25, .F. ) ;
#168 = ORIENTED_EDGE ( 'NONE', *, *, #202, .T. ) ;
#169 = VECTOR ( 'NONE', #301, 39.37007874015748100 ) ;
#170 = EDGE_CURVE ( 'NONE', #177, #46, #179, .T. ) ;
#171 = CC_DESIGN_PERSON_AND_ORGANIZATION_ASSIGNMENT ( #18, #78, ( #373 ) ) ;
#172 = VECTOR ( 'NONE', #336, 39.37007874015748100 ) ;
#173 = DIRECTION ( 'NONE',  ( 1.000000000000000000, 0.0000000000000000000, 0.0000000000000000000 ) ) ;
#174 = APPROVAL_PERSON_ORGANIZATION ( #112, #161, #178 ) ;
#175 = ADVANCED_FACE ( 'NONE', ( #243 ), #159, .F. ) ;
#176 = MECHANICAL_CONTEXT ( 'NONE', #280, 'mechanical' ) ;
#177 = VERTEX_POINT ( 'NONE', #245 ) ;
#178 = APPROVAL_ROLE ( '' ) ;
#179 = LINE ( 'NONE', #99, #69 ) ;
#180 = LINE ( 'NONE', #45, #316 ) ;
#181 = DIRECTION ( 'NONE',  ( 0.0000000000000000000, -1.517693329813479600E-016, 1.000000000000000000 ) ) ;
#182 = DIRECTION ( 'NONE',  ( 0.0000000000000000000, -1.517693329813479600E-016, 1.000000000000000000 ) ) ;
#183 = COORDINATED_UNIVERSAL_TIME_OFFSET ( 5, 0, .BEHIND. ) ;
#184 = ORIENTED_EDGE ( 'NONE', *, *, #138, .T. ) ;
#185 = DIRECTION ( 'NONE',  ( 1.000000000000000000, -0.0000000000000000000, -0.0000000000000000000 ) ) ;
#186 = CARTESIAN_POINT ( 'NONE',  ( -11.00000000000000200, 0.09999999999999975600, 0.8999999999999984700 ) ) ;
#187 = DIRECTION ( 'NONE',  ( 0.0000000000000000000, 1.000000000000000000, 0.0000000000000000000 ) ) ;
#188 = CARTESIAN_POINT ( 'NONE',  ( 10.99999999999999800, 1.000000000000000000, -1.000000000000001600 ) ) ;
#189 = CARTESIAN_POINT ( 'NONE',  ( -11.00000000000000200, 1.000000000000000000, 1.000000000000001100 ) ) ;
#190 = ORIENTED_EDGE ( 'NONE', *, *, #132, .T. ) ;
#191 = DIRECTION ( 'NONE',  ( -1.241749088029210600E-016, 0.0000000000000000000, -1.000000000000000000 ) ) ;
#192 = CARTESIAN_POINT ( 'NONE',  ( -11.00000000000000200, 0.09999999999999999200, -0.9000000000000014700 ) ) ;
#193 = LINE ( 'NONE', #368, #148 ) ;
#194 = DIRECTION ( 'NONE',  ( 0.0000000000000000000, -0.0000000000000000000, 1.000000000000000000 ) ) ;
#195 = ORIENTED_EDGE ( 'NONE', *, *, #22, .T. ) ;
#196 = ORGANIZATION ( 'UNSPECIFIED', 'UNSPECIFIED', '' ) ;
#197 = LINE ( 'NONE', #117, #125 ) ;
#198 = EDGE_LOOP ( 'NONE', ( #190, #63, #293, #139 ) ) ;
#199 = EDGE_CURVE ( 'NONE', #177, #369, #291, .T. ) ;
#200 = VERTEX_POINT ( 'NONE', #366 ) ;
#201 = APPLICATION_CONTEXT ( 'configuration controlled 3d designs of mechanical parts and assemblies' ) ;
#202 = EDGE_CURVE ( 'NONE', #46, #335, #165, .T. ) ;
#203 = ORIENTED_EDGE ( 'NONE', *, *, #83, .T. ) ;
#204 = EDGE_LOOP ( 'NONE', ( #253, #2, #317, #206 ) ) ;
#205 = VECTOR ( 'NONE', #357, 39.37007874015748100 ) ;
#206 = ORIENTED_EDGE ( 'NONE', *, *, #91, .F. ) ;
#207 = DIRECTION ( 'NONE',  ( 1.000000000000000000, -0.0000000000000000000, -0.0000000000000000000 ) ) ;
#208 = AXIS2_PLACEMENT_3D ( 'NONE', #55, #119, #173 ) ;
#209 = MANIFOLD_SOLID_BREP ( 'Cut-Extrude1', #88 ) ;
#210 = CARTESIAN_POINT ( 'NONE',  ( -11.00000000000000200, 0.8999999999999999100, -0.9000000000000014700 ) ) ;
#211 = ORIENTED_EDGE ( 'NONE', *, *, #170, .T. ) ;
#212 = CARTESIAN_POINT ( 'NONE',  ( 10.99999999999999800, 1.000000000000000000, 0.9999999999999984500 ) ) ;
#213 = CC_DESIGN_DATE_AND_TIME_ASSIGNMENT ( #312, #73, ( #373 ) ) ;
#214 = LINE ( 'NONE', #71, #286 ) ;
#215 = CARTESIAN_POINT ( 'NONE',  ( -11.00000000000000200, 1.000000000000000000, 1.000000000000001100 ) ) ;
#216 = CC_DESIGN_PERSON_AND_ORGANIZATION_ASSIGNMENT ( #232, #1, ( #227 ) ) ;
#217 = APPROVAL_PERSON_ORGANIZATION ( #344, #251, #70 ) ;
#218 = PLANE ( 'NONE',  #31 ) ;
#219 = ORIENTED_EDGE ( 'NONE', *, *, #331, .T. ) ;
#220 = CARTESIAN_POINT ( 'NONE',  ( -11.00000000000000200, 1.000000000000000000, -0.9999999999999987800 ) ) ;
#221 = FACE_OUTER_BOUND ( 'NONE', #346, .T. ) ;
#222 = DIRECTION ( 'NONE',  ( 0.0000000000000000000, -1.000000000000000000, -1.327981663586794900E-016 ) ) ;
#223 = CC_DESIGN_SECURITY_CLASSIFICATION ( #373, ( #323 ) ) ;
#224 = ORIENTED_EDGE ( 'NONE', *, *, #72, .T. ) ;
#225 = VECTOR ( 'NONE', #104, 39.37007874015748100 ) ;
#226 = VECTOR ( 'NONE', #114, 39.37007874015748100 ) ;
#227 = PRODUCT_DEFINITION ( 'UNKNOWN', '', #323, #155 ) ;
#228 = ORIENTED_EDGE ( 'NONE', *, *, #22, .F. ) ;
#229 = EDGE_CURVE ( 'NONE', #200, #48, #36, .T. ) ;
#230 = VECTOR ( 'NONE', #156, 39.37007874015748100 ) ;
#231 = ORIENTED_EDGE ( 'NONE', *, *, #15, .F. ) ;
#232 = PERSON_AND_ORGANIZATION ( #27, #196 ) ;
#233 = DIRECTION ( 'NONE',  ( -0.0000000000000000000, -1.000000000000000000, -0.0000000000000000000 ) ) ;
#234 = PLANE ( 'NONE',  #258 ) ;
#235 = ORIENTED_EDGE ( 'NONE', *, *, #170, .F. ) ;
#236 = PLANE ( 'NONE',  #60 ) ;
#237 = FACE_OUTER_BOUND ( 'NONE', #204, .T. ) ;
#238 = DIRECTION ( 'NONE',  ( 0.0000000000000000000, -0.0000000000000000000, 1.000000000000000000 ) ) ;
#239 = CARTESIAN_POINT ( 'NONE',  ( 10.99999999999999800, 1.000000000000000000, 0.9999999999999984500 ) ) ;
#240 = CARTESIAN_POINT ( 'NONE',  ( 10.99999999999999800, 0.8999999999999996900, 0.8999999999999984700 ) ) ;
#241 = VECTOR ( 'NONE', #262, 39.37007874015748100 ) ;
#242 = DIRECTION ( 'NONE',  ( -1.000000000000000000, 0.0000000000000000000, -0.0000000000000000000 ) ) ;
#243 = FACE_OUTER_BOUND ( 'NONE', #28, .T. ) ;
#244 = CALENDAR_DATE ( 2018, 18, 1 ) ;
#245 = CARTESIAN_POINT ( 'NONE',  ( -11.00000000000000200, 1.000000000000000000, 1.000000000000001100 ) ) ;
#246 = PERSON_AND_ORGANIZATION_ROLE ( 'design_owner' ) ;
#247 = EDGE_CURVE ( 'NONE', #361, #177, #193, .T. ) ;
#248 = CARTESIAN_POINT ( 'NONE',  ( 10.99999999999999800, 1.000000000000000000, -1.000000000000001600 ) ) ;
#249 = LOCAL_TIME ( 17, 35, 13.00000000000000000, #89 ) ;
#250 = ADVANCED_FACE ( 'NONE', ( #122 ), #298, .F. ) ;
#251 = APPROVAL ( #326, 'UNSPECIFIED' ) ;
#252 = LINE ( 'NONE', #30, #172 ) ;
#253 = ORIENTED_EDGE ( 'NONE', *, *, #364, .F. ) ;
#254 = CC_DESIGN_DATE_AND_TIME_ASSIGNMENT ( #9, #92, ( #227 ) ) ;
#255 = VECTOR ( 'NONE', #164, 39.37007874015748100 ) ;
#256 = EDGE_LOOP ( 'NONE', ( #334, #3, #101, #184 ) ) ;
#257 = LINE ( 'NONE', #351, #332 ) ;
#258 = AXIS2_PLACEMENT_3D ( 'NONE', #68, #10, #360 ) ;
#259 = ORIENTED_EDGE ( 'NONE', *, *, #229, .T. ) ;
#260 = VECTOR ( 'NONE', #84, 39.37007874015748100 ) ;
#261 = CALENDAR_DATE ( 2018, 18, 1 ) ;
#262 = DIRECTION ( 'NONE',  ( -1.000000000000000000, 0.0000000000000000000, 1.241749088029210600E-016 ) ) ;
#263 = ORIENTED_EDGE ( 'NONE', *, *, #127, .F. ) ;
#264 = PLANE ( 'NONE',  #80 ) ;
#265 = CARTESIAN_POINT ( 'NONE',  ( 10.99999999999999800, 0.0000000000000000000, -1.000000000000001600 ) ) ;
#266 = EDGE_CURVE ( 'NONE', #341, #145, #283, .T. ) ;
#267 = PLANE ( 'NONE',  #5 ) ;
#268 = CC_DESIGN_APPROVAL ( #251, ( #373 ) ) ;
#269 = VERTEX_POINT ( 'NONE', #49 ) ;
#270 = DIRECTION ( 'NONE',  ( 1.000000000000000000, -0.0000000000000000000, 0.0000000000000000000 ) ) ;
#271 = EDGE_CURVE ( 'NONE', #278, #269, #370, .T. ) ;
#272 = SHAPE_DEFINITION_REPRESENTATION ( #287, #149 ) ;
#273 = VERTEX_POINT ( 'NONE', #79 ) ;
#274 = CARTESIAN_POINT ( 'NONE',  ( 0.0000000000000000000, 1.000000000000000000, 0.0000000000000000000 ) ) ;
#275 = DIRECTION ( 'NONE',  ( -0.0000000000000000000, 1.327981663586794600E-016, -1.000000000000000000 ) ) ;
#276 = UNCERTAINTY_MEASURE_WITH_UNIT (LENGTH_MEASURE( 1.000000000000000100E-005 ), #58, 'distance_accuracy_value', 'NONE');
#277 = ORIENTED_EDGE ( 'NONE', *, *, #271, .T. ) ;
#278 = VERTEX_POINT ( 'NONE', #240 ) ;
#279 = FACE_OUTER_BOUND ( 'NONE', #198, .T. ) ;
#280 = APPLICATION_CONTEXT ( 'configuration controlled 3d designs of mechanical parts and assemblies' ) ;
#281 = ORIENTED_EDGE ( 'NONE', *, *, #364, .T. ) ;
#282 = CARTESIAN_POINT ( 'NONE',  ( -11.00000000000000200, 0.0000000000000000000, -0.9999999999999987800 ) ) ;
#283 = LINE ( 'NONE', #300, #356 ) ;
#284 = APPROVAL_STATUS ( 'not_yet_approved' ) ;
#285 = ORIENTED_EDGE ( 'NONE', *, *, #15, .T. ) ;
#286 = VECTOR ( 'NONE', #292, 39.37007874015748100 ) ;
#287 = PRODUCT_DEFINITION_SHAPE ( 'NONE', 'NONE',  #227 ) ;
#288 = CC_DESIGN_APPROVAL ( #347, ( #323 ) ) ;
#289 = DIRECTION ( 'NONE',  ( -1.000000000000000000, 0.0000000000000000000, 0.0000000000000000000 ) ) ;
#290 = ADVANCED_FACE ( 'NONE', ( #303 ), #218, .F. ) ;
#291 = LINE ( 'NONE', #189, #169 ) ;
#292 = DIRECTION ( 'NONE',  ( -0.0000000000000000000, 1.327981663586794600E-016, -1.000000000000000000 ) ) ;
#293 = ORIENTED_EDGE ( 'NONE', *, *, #339, .F. ) ;
#294 = FACE_OUTER_BOUND ( 'NONE', #256, .T. ) ;
#295 = CARTESIAN_POINT ( 'NONE',  ( 10.99999999999999800, 1.000000000000000000, 0.9999999999999984500 ) ) ;
#296 = AXIS2_PLACEMENT_3D ( 'NONE', #108, #222, #328 ) ;
#297 = CARTESIAN_POINT ( 'NONE',  ( -11.00000000000000200, 0.09999999999999999200, -0.9000000000000014700 ) ) ;
#298 = PLANE ( 'NONE',  #376 ) ;
#299 = APPROVAL_DATE_TIME ( #143, #251 ) ;
#300 = CARTESIAN_POINT ( 'NONE',  ( -11.00000000000000200, 0.09999999999999999200, -0.9000000000000014700 ) ) ;
#301 = DIRECTION ( 'NONE',  ( -0.0000000000000000000, -1.000000000000000000, -0.0000000000000000000 ) ) ;
#302 = LINE ( 'NONE', #153, #327 ) ;
#303 = FACE_OUTER_BOUND ( 'NONE', #157, .T. ) ;
#304 = CC_DESIGN_APPROVAL ( #161, ( #227 ) ) ;
#305 = EDGE_LOOP ( 'NONE', ( #313, #322, #235, #74 ) ) ;
#306 = VECTOR ( 'NONE', #362, 39.37007874015748100 ) ;
#307 = LINE ( 'NONE', #248, #241 ) ;
#308 = CC_DESIGN_PERSON_AND_ORGANIZATION_ASSIGNMENT ( #372, #38, ( #323 ) ) ;
#309 = ORIENTED_EDGE ( 'NONE', *, *, #271, .F. ) ;
#310 = APPROVAL_DATE_TIME ( #23, #161 ) ;
#311 = CARTESIAN_POINT ( 'NONE',  ( -11.00000000000000200, 0.0000000000000000000, 1.000000000000001100 ) ) ;
#312 = DATE_AND_TIME ( #261, #86 ) ;
#313 = ORIENTED_EDGE ( 'NONE', *, *, #91, .T. ) ;
#314 = CALENDAR_DATE ( 2018, 18, 1 ) ;
#315 = APPROVAL_ROLE ( '' ) ;
#316 = VECTOR ( 'NONE', #207, 39.37007874015748100 ) ;
#317 = ORIENTED_EDGE ( 'NONE', *, *, #150, .F. ) ;
#318 = CARTESIAN_POINT ( 'NONE',  ( -11.00000000000000200, 0.1000000000000000100, -0.9000000000000015800 ) ) ;
#319 = DIRECTION ( 'NONE',  ( 0.0000000000000000000, -0.0000000000000000000, 1.000000000000000000 ) ) ;
#320 = CARTESIAN_POINT ( 'NONE',  ( 10.99999999999999800, 0.0000000000000000000, 0.9999999999999984500 ) ) ;
#321 = ADVANCED_FACE ( 'NONE', ( #50, #221 ), #367, .F. ) ;
#322 = ORIENTED_EDGE ( 'NONE', *, *, #138, .F. ) ;
#323 = PRODUCT_DEFINITION_FORMATION_WITH_SPECIFIED_SOURCE ( 'ANY', '', #371, .NOT_KNOWN. ) ;
#324 = LOCAL_TIME ( 17, 35, 13.00000000000000000, #115 ) ;
#325 = CARTESIAN_POINT ( 'NONE',  ( 10.99999999999999800, 1.000000000000000000, 0.9999999999999984500 ) ) ;
#326 = APPROVAL_STATUS ( 'not_yet_approved' ) ;
#327 = VECTOR ( 'NONE', #233, 39.37007874015748100 ) ;
#328 = DIRECTION ( 'NONE',  ( 0.0000000000000000000, 1.327981663586794900E-016, -1.000000000000000000 ) ) ;
#329 = VERTEX_POINT ( 'NONE', #133 ) ;
#330 = DIRECTION ( 'NONE',  ( 0.0000000000000000000, 1.000000000000000000, 0.0000000000000000000 ) ) ;
#331 = EDGE_CURVE ( 'NONE', #341, #200, #33, .T. ) ;
#332 = VECTOR ( 'NONE', #181, 39.37007874015748100 ) ;
#333 = PLANE ( 'NONE',  #85 ) ;
#334 = ORIENTED_EDGE ( 'NONE', *, *, #150, .T. ) ;
#335 = VERTEX_POINT ( 'NONE', #158 ) ;
#336 = DIRECTION ( 'NONE',  ( -0.0000000000000000000, -1.000000000000000000, -0.0000000000000000000 ) ) ;
#337 = PERSON_AND_ORGANIZATION ( #27, #196 ) ;
#338 = ADVANCED_FACE ( 'NONE', ( #237 ), #236, .F. ) ;
#339 = EDGE_CURVE ( 'NONE', #145, #329, #257, .T. ) ;
#340 = ORIENTED_EDGE ( 'NONE', *, *, #96, .T. ) ;
#341 = VERTEX_POINT ( 'NONE', #318 ) ;
#342 = PERSON_AND_ORGANIZATION ( #27, #196 ) ;
#343 =( NAMED_UNIT ( * ) SI_UNIT ( $, .STERADIAN. ) SOLID_ANGLE_UNIT ( ) );
#344 = PERSON_AND_ORGANIZATION ( #27, #196 ) ;
#345 = APPLICATION_PROTOCOL_DEFINITION ( 'international standard', 'config_control_design', 1994, #280 ) ;
#346 = EDGE_LOOP ( 'NONE', ( #281, #35, #151, #224 ) ) ;
#347 = APPROVAL ( #124, 'UNSPECIFIED' ) ;
#348 = VERTEX_POINT ( 'NONE', #51 ) ;
#349 = DATE_AND_TIME ( #314, #29 ) ;
#350 = CC_DESIGN_PERSON_AND_ORGANIZATION_ASSIGNMENT ( #11, #130, ( #323 ) ) ;
#351 = CARTESIAN_POINT ( 'NONE',  ( -11.00000000000000200, 0.8999999999999999100, -0.9000000000000014700 ) ) ;
#352 = CARTESIAN_POINT ( 'NONE',  ( 10.99999999999999800, 0.8999999999999999100, -0.9000000000000014700 ) ) ;
#353 = ORIENTED_EDGE ( 'NONE', *, *, #266, .T. ) ;
#354 = DIRECTION ( 'NONE',  ( 0.0000000000000000000, 1.000000000000000000, 1.517693329813479600E-016 ) ) ;
#355 = ADVANCED_FACE ( 'NONE', ( #16 ), #333, .T. ) ;
#356 = VECTOR ( 'NONE', #330, 39.37007874015748100 ) ;
#357 = DIRECTION ( 'NONE',  ( -0.0000000000000000000, -1.000000000000000000, -0.0000000000000000000 ) ) ;
#358 = CARTESIAN_POINT ( 'NONE',  ( -11.00000000000000200, 0.8999999999999999100, -0.9000000000000014700 ) ) ;
#359 = CARTESIAN_POINT ( 'NONE',  ( 0.0000000000000000000, 0.0000000000000000000, 0.0000000000000000000 ) ) ;
#360 = DIRECTION ( 'NONE',  ( 1.000000000000000000, 0.0000000000000000000, -1.241749088029210600E-016 ) ) ;
#361 = VERTEX_POINT ( 'NONE', #220 ) ;
#362 = DIRECTION ( 'NONE',  ( 1.000000000000000000, -0.0000000000000000000, -0.0000000000000000000 ) ) ;
#363 = VERTEX_POINT ( 'NONE', #53 ) ;
#364 = EDGE_CURVE ( 'NONE', #374, #369, #41, .T. ) ;
#365 = LINE ( 'NONE', #352, #57 ) ;
#366 = CARTESIAN_POINT ( 'NONE',  ( 10.99999999999999800, 0.09999999999999999200, -0.9000000000000014700 ) ) ;
#367 = PLANE ( 'NONE',  #47 ) ;
#368 = CARTESIAN_POINT ( 'NONE',  ( -11.00000000000000200, 1.000000000000000000, 1.000000000000001100 ) ) ;
#369 = VERTEX_POINT ( 'NONE', #137 ) ;
#370 = LINE ( 'NONE', #105, #93 ) ;
#371 = PRODUCT ( 'David intake V2 part 1', 'David intake V2 part 1', '', ( #176 ) ) ;
#372 = PERSON_AND_ORGANIZATION ( #27, #196 ) ;
#373 = SECURITY_CLASSIFICATION ( '', '', #13 ) ;
#374 = VERTEX_POINT ( 'NONE', #282 ) ;
#375 = APPROVAL_PERSON_ORGANIZATION ( #337, #347, #315 ) ;
#376 = AXIS2_PLACEMENT_3D ( 'NONE', #295, #191, #82 ) ;
ENDSEC;
END-ISO-10303-21;
